tabs

Do whatever you want here. Anything goes.

Moderators: neck_cannon, thebigmin, steven, Andrew

Re: tabs

Postby chordstv » Fri Feb 06, 2015 9:56 am

Joe wrote:I think I've got the beginning to A Well Documented Case Of Severe Autism by Jeromes Dream.

E|--x-x-x-------x-x-x--------------|
B|--6-6-6-------x-x-x----888888--|
G|--x-x-x------6-6-6----xxxxxx--|
D|--7-7-7------7-7-7----888888--|
A|--5-5-5------5-5-5----xxxxxx--|
E|--0-0-0------0-0-0----666666--|

I couldn't figure out the part after , and the clean part I'm just too lazy to figure out. Now, if someone could put up The Sweetness And The Light by Saetia, that'd be cool. Also, whoever mentioned they had the songs on Presents figured out, seeing how to play His Life Is My Denim Paradise All Day, Every Day and Double Who? Double You! would be awesome. Presents rules.


Hello, could you please continue figure out this song. Thank you, you're amazing guy.
chordstv
 
Posts: 1
Joined: Thu Feb 05, 2015 4:21 am

Re: tabs

Postby chewing tinfoil » Sun Aug 11, 2019 3:00 pm

The Saddest Mike wrote:
klefmop wrote:
Jakey LIAF wrote:
tijs, i've been meaning to get around to doing this. i don't have a bass in front of me, otherwise i'd knock it out...will try to remember tonight.


had this bass line stuck in my head all day, so I sat down and figured it out.


G------------------------------------------------------------
D------------10------9-----7----7h9-1010----------99-------
A----0-----0-----0-----0--------------88---8-10----77---0-7
E-------------------------------------------------------------

second part is

G------------------------------------------------------------
D-----------10---12---s14--1010---10-------10-----10---
A--------0-----0-----0-------88---8----8--10----10-----10
E-------------------------------------------------------------

tabbed this on my iPod
hopefully it doesn't eat ass


These are the correct notes, but I feel like it's supposed to be an octave lower. Anyone else wanna shed some light on this? Also, does anyone know the bass tunings that Portraits of Past used? Was it drop D or standard? or what?


Thanks i just saw this now! i don't have a bass lying aruond but played it on the upper 4 strings of a guitar :)

I don't think it's supposed to be tuned different, a friend i lived with in germany who can play by ear played this once for me and it sounded tight. then again when i saw COC play live i saw them tuning around lots of times during their set so you could be right
User avatar
chewing tinfoil
 
Posts: 150
Joined: Mon Jun 28, 2010 12:06 pm

Re: tabs

Postby klefmop » Wed Aug 14, 2019 4:24 pm

Strangely enough I vididly remember where I was when tabbing that out. Sucks someone stole it and put it on ultimate guitar
thebigmin wrote:Screamo Will Never Die

-thebigmin
User avatar
klefmop
 
Posts: 626
Joined: Thu Feb 07, 2013 11:10 am
Location: Michigan

Re: tabs

Postby chewing tinfoil » Sun Aug 18, 2019 12:53 pm

klefmop wrote:Strangely enough I vididly remember where I was when tabbing that out. Sucks someone stole it and put it on ultimate guitar



That's how i ended up on CMHWAK again, they mentioned it on the tab page it was from this forum :)
User avatar
chewing tinfoil
 
Posts: 150
Joined: Mon Jun 28, 2010 12:06 pm

Previous

Return to Talk About Anything

Who is online

Users browsing this forum: No registered users and 1 guest